NakupniCentrum.cz

Nirvana - dump

6. března 2006 v 22:51 | Twigi
For the verses, play this riff
 
e:-------------]
B:-------------]
G:-------------]
D:---2--------5]
A:---2--------5]
E:0----0-3-3---]
       "I'm not like them..."
 
Just strum these chords for the chorus
 
e:0---3
B:0---3 
G:0---0 
D:2---0
A:2---2
E:0---3
"Maybe just happy"
 
 
Play this for the bridge going into the 3rd verse
e:--------------  
B:-------------- 
G:4--4-4-5-5-5-5  Reapeat a few times
D:4--4-4-5-5-5-5
A:2--2-2-3-3-3-3
E:--------------
  "Skin the sun"
  
 
   Outro is the same as the verses
e:-------------]
B:-------------]
G:-------------]
D:---2--------5]
A:---2--------5]
E:0----0-3-3---]
  "I think im dumb"     
 
Thats it, don't let the memories of Kurt fade away.
 
 
 

Buď první, kdo ohodnotí tento článek.

Nový komentář

Přihlásit se
  Ještě nemáte vlastní web? Můžete si jej zdarma založit na Blog.cz.
 

Aktuální články

Reklama