NakupniCentrum.cz

Metallica - I dissapear

6. března 2006 v 22:52 | Twigi
  Author/Artist: MetallicA  
  Title: I Disappear  
  Album: Mision Impossible 2 Soundtrack  
  Transcribed by: Nicky P.  
  Email: wetwilly543@yahoo.com  
     
  Tune all guitars 1/2 step down.   
     
  -|------------------|------------------------------------------------------  
  -|------------------|------------------------------------------------------  
  -|----9b-------9b---|------------------------------------------------------  
  -|------------------|------------------------------------------------------  
  -|------------------|------------------------------------------------------  
  -|0-0-----0--0------|------------------------------------------------------  
   Intro  W/Fill 1  (play 7 times)                                                
     
  -|----------------------|--------------------------------------------------  
  -|----------------------|--------------------------------------------------  
  -|----------------------|--------------------------------------------------  
  -|----------------------|--------------------------------------------------  
  -|----------------------|--------------------------------------------------  
  -|-0-0-0-0-0-0-0-0-0-0--|--------------------------------------------------  
   Fill 1  W/Flanger (4 times)                                                    
     
  -|-------------------------------------------------------------------------  
  -|-------------------------------------------------------------------------  
  -|-------------------------------------------------------------------------  
  -|---2b--2----2b-2---2b-2----2b-2------------------------------------------  
  -|---2b--0----2b-0---2b-0----2b-0---5-5------------------------------------  
  -|-0-------0-------0-------0--------3-3------------------------------------  
   This is the part before the verse                                              
     
  -|------------|-----------------|-------------------|----------------------  
  -|------------|-----------------|-------------------|----------------------  
  -|------------|-----------------|-------------------|----------------------  
  -|------------|------------0-2h-|-------------------|----------------------  
  -|------------|-----------------|-------------------|----------------------  
  -|-0----0---0-|-0------0--------|-0----------0----0-|----------------------  
     Verse(Guitar 1)(listen for timing)                                           
     
  -|--------------|---------------|-------------------|----------------------  
  -|--------------|---------------|-------------------|----------------------  
  -|--------------|---------------|-------------------|----------------------  
  -|--------------|---------------|-------------------|----------------------  
  -|-2------------|-2-------------|--2----------------|--2----5-5------------  
  -|-0----0----0--|-0------0----0-|--0---------0----0-|--0----3-3------------  
   Verse (guitar 2)        pm....              pm....                             
     
  -|---------------|--------------|--------------|----------|----------------  
  -|---------------|--------------|--------------|----------|----------------  
  -|---------------|--------------|--------------|----------|----------------  
  -|---------------|--------------|--------------|-----5--5-|--4--4---7--7--7  
  -|---2-----------|--2-----------|--2-----------|-2---x--x-|--x--x---x--x--x  
  -|---0----0----0-|--0----0----0-|--0-----0---0-|-0---3--3-|--2--2---5--5--5  
            pm....         pm....          pm...                                  
     
  -|------------------|-----------|------------------------------------------  
  -|------------------|-----------|------------------------------------------  
  -|------------------|-----------|------------------------------------------  
  -|----------7-7b----|-----------|------------------------------------------  
  -|----------x-x-----|-----------|-2----------------------------------------  
  -|-0--2--0--5-5b--0-|----0----0-|-0----0----0------------------------------  
                           pm....        pm....                                   
     
  -|-------------------------------------------------------------------------  
  -|-------------------------------------------------------------------------  
  -|-------------------------------------------------------------------------  
  -|-------------------------------------------------------------------------  
  -|-------------------------------------------------------------------------  
  -|-------------------------------------------------------------------------  
   I haven't figgered out the interlude yet..                                     
     
  -|------------------|----------------|----|----|---------------------------  
  -|--------7---------|----------------|----|----|------7--------------------  
  -|--5------------7--|----------------|----|----|-5---------7---------------  
  -|------------------|----------------|-7--|----|--------------7------------  
  -|------------------|----------------|----|-7--|---------------------------  
  -|------------------|----------------|----|----|---------------------------  
      ** these are all harmonics **      "Do ya bury me when I'm gone?"           
     
  -|--------------------------|--------------------------|-------------------  
  -|--------------------------|--------------------------|-------------------  
  -|-12-12-12--------------12-|-12-12-12--------------12-|-12-12-12----------  
  -|-12-12-12-------12-14h----|-12-12-12-------12-14h----|-12-12-12-------12-  
  -|-----------/14------------|-----------/14------------|-----------/14-----  
  -|--------------------------|--------------------------|-------------------  
     Solo                                                                         
     
  --------|------------------------------------------------------------------  
  --------|------------------------------------------------------------------  
  -----12-|--14p-12h-----14p-12h-----14p-12h-----14p-12h-----14p-12h---------  
  -14h----|----------14----------14----------14----------14----------14------  
  --------|------------------------------------------------------------------  
  --------|------------------------------------------------------------------  
            That's all for now. I'll figger the rest of this thing out later!     
     
 

Buď první, kdo ohodnotí tento článek.

Komentáře

1 wilhemina wilhemina | Web | 30. května 2006 v 16:22 | Reagovat

špaatně se to šíítá!:o(

Nový komentář

Přihlásit se
  Ještě nemáte vlastní web? Můžete si jej zdarma založit na Blog.cz.
 

Aktuální články

Reklama