NakupniCentrum.cz

Manson- sweet dreams

26. ledna 2006 v 23:59 | Twigi
Tabulátor na kytaru
Marilyn Manson - Sweet Dreams ( Knavis )
Main riff
 
e|----------------|-------------------|
B|----------------|-------------------|
G|----------------|-------------------|
D|------5---6---5-|-------------------|
A|--3-3---3---3---|-----6/8-----5/6---|
E|----------------|--4-4-----3-3------|
 
or
 
2.)INTRO(arranged for electric distored guitar)
 
|-----------------------------------------------|
|-----------------------------------------------|
|-----------------------------------------------|
|-----------7----8--(8)--7-\-----5h6--\-----3h4-| 2 Times
|------5-5----5------------\-3-3------\-1-1-----|
|-----------------------------------------------|
 
3.)Verse 1 (reapeat the intro all the time)
 
               Sweet Dreams are made of these
               Who have a mind to disagree
               travel the world and the seven seas
               everybody is looking for something
 
4.)Chorus (intro reapeated)
               
               Some of them want to use you
               Some of them wanna get used by you
               Some of them want to abuse you
               Some of them want to be abused
 
5.)Guitar Part&Intro 
Guitar-part(with wahwah!!)
|-------5-----6-5----------3-3---------1--1-----|
|-----------------------------------------------|
|-7--7-----7-------\ 5--5-------\-3--3----------| 2 times
|-----------------------------------------------|
|-----------------------------------------------|
|-----------------------------------------------|
 
6.)Verse 2 (Intro repeated)
               
               Sweet Dreams are made of these
               Who have a mind to disagree
               travel the world and the seven seas
               everybody is looking for something
 
7.)Chorus(Intro reapeated)
               
               Some of them want to use you
               Some of them wanna get used by you
               Some of them want to abuse you
               Some of them want to be abused
 
8.)BRIDGE 
               I wanna use you
               I wanna use you
               I wanna know by your side
               Movin' on
               Movin' on
        Movin' on
               Movin' on (whispered:"watch out") 
               Movin' on
        Don't movin' on------
 
9.)SOLO (Intro for background)
 
10.)VERSE 3 (only Drums and keyboard)
               
               Sweet Dreams are made of these
               Who have a mind to disagree
               travel the world and the seven seas
               everybody is looking for something
 
11.)CHORUS (intro reapeated)
               
               Some of them want to use you
               Some of them wanna get used by you
               Some of them want to abuse you
               Some of them want to be abused--
 
12.)BRIDGE 2
               I wanna use you
               I wanna use you
               I wanna know by your side
               I wanna use you
               I wanna use you
               I wanna know by your side
 
 

Buď první, kdo ohodnotí tento článek.

Komentáře

1 wilhemina wilhemina | Web | 30. května 2006 v 16:22 | Reagovat

tu píššnišku žeru...:o)

2 Pavla Pavla | 26. prosince 2006 v 22:33 | Reagovat

Jak někdo může napsat komentář na Sweet dreams od Mensona "tu píššnišku žeru"? Tyhle lidi nepochopim...

3 dark3angel dark3angel | Web | 5. ledna 2007 v 21:33 | Reagovat

jo to ja bych zase nepochopila kdyby nekdo zral tu puvodni verzi..takhle je to proste uplne uzasny.. =)

4 candybones4ever candybones4ever | E-mail | Web | 16. listopadu 2007 v 15:32 | Reagovat

Čawesky... Hezkej blogís!! Jen mám takovej dotázek, jak si tam dal/a tu galerii?? Mě to vůbec nejde... Odepiš třeba sem, já se ještě vrátim. Díkesky, čawesky

5 Painkiller347 Painkiller347 | E-mail | Web | 26. května 2009 v 19:58 | Reagovat

Pavlo, jak někdo může napsat Mensona, tyhle lidi nepochopim :) Víš že se to píše Marilyn Manson, ne žádný Menson...se vrať do školky ty ťulo :P

Nový komentář

Přihlásit se
  Ještě nemáte vlastní web? Můžete si jej zdarma založit na Blog.cz.
 

Aktuální články

Reklama