NakupniCentrum.cz

Deep purple

27. ledna 2006 v 21:27 | Twigi
Deep Purple - Soldier of Fortune ( Knavis )
Intro: Gm / F / Eb
   Gm            Dm                            C                    Gm  
e----------------------------------------------------------------------------------
B-----10-11/15---13h15p13-11-10h11p10----10----13-11h13p11-10--------11p10---------
G--12---------------------------------12---------------------12--12--------12------
D----------------------------------------------------------------------------------
 
        Gm
I have often told you stories
 
I have often told you stories
F
about the way
   Gm
I lived the life of a drifter
Dm
  waiting for the day
          Gm
When I'd take your hand and sing you songs
      F
Then maybe you would say
Gm
Come lay with me and love me
Dm                      Bass D-C-Bb
  And I would surely stay
 
 
Bb       C                Gm   Bass G-F-Eb
  But I feel I'm growing older
            F                Bb
  And the songs that I have sung
   D            Gm
  Echo in the distance
             F
  Like the sound
        Bb              Eb  Bass Eb-D
  Of a windmill going round
  Cm                Dm
  Guess I'll always be
                Gm
  A soldier of fortune.
 
 
 
Solo:
 
   Gm                  C                   Gm                   C   
e---------------------------------------------13-13/15-13/15----------------------
B-------------------------11-11/13-11/13---15------------------(15)r13-11-13------
G-----10-10/12-10/12---12---------------------------------------------------------
D--12-----------------------------------------------------------------------------
A---------------------------------------------------------------------------------
E---------------------------------------------------------------------------------
 
   Gm                   Bb                       C              Gm   
e-----13-13/15-13/15--------------------------------------------------------------
B--15------------------(15)r13-11-13/15-13/15---(15)r13-11-13---11p10--11p10------
G----------------------------------------------------------------------------12---
D---------------------------------------------------------------------------------
A---------------------------------------------------------------------------------
E---------------------------------------------------------------------------------
 
 
Many times I've been a traveller
I looked for something new
In days of old when nights were cold
I wandered without you
But those days I thought my eyes
Had seen you standing near
Though blindness is confusing
It shows that you're not here.
 
 
  Now I feel I'm going older
  And the songs that I have sung
  Echo in the distance
  Like the sound
  Of a windmill going round
  Guess I'll always be
  A soldier of fortune
 
       Eb             F
  Yes, I can hear the sound
         Bb           Eb Bass Eb-D
  of a windmill going round
     Cm               Dm
  I guess I'll always be
                Gm
  a soldier of fortune.
     Eb         F
  I guess I'll always be
                G  (major chord)
  a soldier of foRtune.
 

Buď první, kdo ohodnotí tento článek.

Komentáře

1 Malasorte Malasorte | 26. května 2006 v 15:22 | Reagovat

Jedinej dobrej tab k něčemu jinak ostatní jsou nic

Nový komentář

Přihlásit se
  Ještě nemáte vlastní web? Můžete si jej zdarma založit na Blog.cz.
 

Aktuální články

Reklama